ISO-10303-21;
HEADER;
/* Generated by software containing ST-Developer
 * from STEP Tools, Inc. (www.steptools.com) 
 */

FILE_DESCRIPTION(
/* description */ (''),
/* implementation_level */ '2;1');

FILE_NAME(
/* name */ 
'C:\\Users\\svale\\OneDrive\\Upwork\\Controller\\Hand\\Arm ProximalV2.
ipt.stp',
/* time_stamp */ '2021-06-20T10:01:10-05:00',
/* author */ ('svale'),
/* organization */ (''),
/* preprocessor_version */ 'ST-DEVELOPER v18.1',
/* originating_system */ 'Autodesk Inventor 2021',
/* authorisation */ '');

FILE_SCHEMA (('AUTOMOTIVE_DESIGN { 1 0 10303 214 3 1 1 }'));
ENDSEC;

DATA;
#10=MECHANICAL_DESIGN_GEOMETRIC_PRESENTATION_REPRESENTATION('',(#13),#425);
#11=SHAPE_REPRESENTATION_RELATIONSHIP('SRR','None',#432,#12);
#12=ADVANCED_BREP_SHAPE_REPRESENTATION('',(#14),#424);
#13=STYLED_ITEM('',(#441),#14);
#14=MANIFOLD_SOLID_BREP('S\X\F3lido1',#196);
#15=FACE_BOUND('',#40,.T.);
#16=FACE_BOUND('',#42,.T.);
#17=FACE_BOUND('',#46,.T.);
#18=FACE_BOUND('',#48,.T.);
#19=PLANE('',#219);
#20=PLANE('',#227);
#21=PLANE('',#228);
#22=PLANE('',#236);
#23=PLANE('',#237);
#24=FACE_OUTER_BOUND('',#35,.T.);
#25=FACE_OUTER_BOUND('',#36,.T.);
#26=FACE_OUTER_BOUND('',#37,.T.);
#27=FACE_OUTER_BOUND('',#38,.T.);
#28=FACE_OUTER_BOUND('',#39,.T.);
#29=FACE_OUTER_BOUND('',#41,.T.);
#30=FACE_OUTER_BOUND('',#43,.T.);
#31=FACE_OUTER_BOUND('',#44,.T.);
#32=FACE_OUTER_BOUND('',#45,.T.);
#33=FACE_OUTER_BOUND('',#47,.T.);
#34=FACE_OUTER_BOUND('',#49,.T.);
#35=EDGE_LOOP('',(#127,#128,#129,#130));
#36=EDGE_LOOP('',(#131,#132,#133,#134));
#37=EDGE_LOOP('',(#135,#136,#137,#138));
#38=EDGE_LOOP('',(#139,#140,#141,#142,#143,#144,#145,#146));
#39=EDGE_LOOP('',(#147,#148));
#40=EDGE_LOOP('',(#149,#150));
#41=EDGE_LOOP('',(#151));
#42=EDGE_LOOP('',(#152,#153));
#43=EDGE_LOOP('',(#154,#155,#156,#157,#158));
#44=EDGE_LOOP('',(#159,#160,#161,#162,#163));
#45=EDGE_LOOP('',(#164,#165));
#46=EDGE_LOOP('',(#166,#167));
#47=EDGE_LOOP('',(#168,#169));
#48=EDGE_LOOP('',(#170));
#49=EDGE_LOOP('',(#171,#172,#173,#174,#175,#176,#177,#178));
#50=B_SPLINE_CURVE_WITH_KNOTS('',3,(#303,#304,#305,#306,#307,#308,#309,
#310,#311,#312,#313,#314,#315,#316,#317,#318,#319,#320,#321),
 .UNSPECIFIED.,.F.,.F.,(4,2,2,2,3,2,2,2,4),(0.922537325049048,0.999310505714261,
1.07608368637947,1.15306672655577,1.23004976673206,1.30703280690836,1.38401584708465,
1.46078902774987,1.53756220841508),.UNSPECIFIED.);
#51=B_SPLINE_CURVE_WITH_KNOTS('',3,(#343,#344,#345,#346,#347,#348,#349,
#350,#351,#352),.UNSPECIFIED.,.F.,.F.,(4,2,2,2,4),(0.610183468441548,0.686495001492079,
0.762806534542609,0.839040868602466,0.915275202662322),.UNSPECIFIED.);
#52=B_SPLINE_CURVE_WITH_KNOTS('',3,(#354,#355,#356,#357,#358,#359,#360,
#361,#362,#363),.UNSPECIFIED.,.F.,.F.,(4,2,2,2,4),(0.305091734220774,0.381326068280631,
0.457560402340488,0.533871935391018,0.610183468441548),.UNSPECIFIED.);
#53=B_SPLINE_CURVE_WITH_KNOTS('',3,(#365,#366,#367,#368,#369,#370,#371,
#372,#373,#374,#375,#376,#377,#378,#379,#380,#381,#382,#383),
 .UNSPECIFIED.,.F.,.F.,(4,2,2,2,3,2,2,2,4),(0.915275202662322,0.991509536722179,
1.06774387078204,1.14405540383257,1.2203669368831,1.29667846993363,1.37299000298416,
1.44922433704401,1.52545867110387),.UNSPECIFIED.);
#54=B_SPLINE_CURVE_WITH_KNOTS('',3,(#397,#398,#399,#400,#401,#402,#403,
#404,#405,#406),.UNSPECIFIED.,.F.,.F.,(4,2,2,2,4),(0.615024883366032,0.692007923542327,
0.768990963718621,0.845764144383835,0.922537325049048),.UNSPECIFIED.);
#55=B_SPLINE_CURVE_WITH_KNOTS('',3,(#407,#408,#409,#410,#411,#412,#413,
#414,#415,#416),.UNSPECIFIED.,.F.,.F.,(4,2,2,2,4),(0.307512441683016,0.384285622348229,
0.461058803013443,0.538041843189737,0.615024883366032),.UNSPECIFIED.);
#56=CIRCLE('',#217,4.);
#57=CIRCLE('',#218,4.);
#58=CIRCLE('',#221,3.4);
#59=CIRCLE('',#222,3.4);
#60=CIRCLE('',#224,5.);
#61=CIRCLE('',#225,5.);
#62=CIRCLE('',#226,5.);
#63=CIRCLE('',#230,0.7835);
#64=CIRCLE('',#231,0.7835);
#65=CIRCLE('',#232,0.7835);
#66=CIRCLE('',#234,4.);
#67=CIRCLE('',#235,4.);
#68=LINE('',#299,#76);
#69=LINE('',#326,#77);
#70=LINE('',#328,#78);
#71=LINE('',#330,#79);
#72=LINE('',#331,#80);
#73=LINE('',#341,#81);
#74=LINE('',#392,#82);
#75=LINE('',#421,#83);
#76=VECTOR('',#243,4.);
#77=VECTOR('',#250,10.);
#78=VECTOR('',#251,10.);
#79=VECTOR('',#252,10.);
#80=VECTOR('',#253,10.);
#81=VECTOR('',#266,5.);
#82=VECTOR('',#279,0.7835);
#83=VECTOR('',#294,2.);
#84=VERTEX_POINT('',#297);
#85=VERTEX_POINT('',#298);
#86=VERTEX_POINT('',#300);
#87=VERTEX_POINT('',#302);
#88=VERTEX_POINT('',#324);
#89=VERTEX_POINT('',#325);
#90=VERTEX_POINT('',#327);
#91=VERTEX_POINT('',#329);
#92=VERTEX_POINT('',#336);
#93=VERTEX_POINT('',#337);
#94=VERTEX_POINT('',#340);
#95=VERTEX_POINT('',#342);
#96=VERTEX_POINT('',#353);
#97=VERTEX_POINT('',#387);
#98=VERTEX_POINT('',#388);
#99=VERTEX_POINT('',#391);
#100=VERTEX_POINT('',#396);
#101=EDGE_CURVE('',#84,#85,#68,.T.);
#102=EDGE_CURVE('',#84,#86,#56,.T.);
#103=EDGE_CURVE('',#87,#86,#50,.T.);
#104=EDGE_CURVE('',#85,#87,#57,.T.);
#105=EDGE_CURVE('',#88,#89,#69,.T.);
#106=EDGE_CURVE('',#90,#88,#70,.T.);
#107=EDGE_CURVE('',#91,#90,#71,.T.);
#108=EDGE_CURVE('',#89,#91,#72,.T.);
#109=EDGE_CURVE('',#89,#88,#58,.T.);
#110=EDGE_CURVE('',#90,#91,#59,.T.);
#111=EDGE_CURVE('',#92,#93,#60,.T.);
#112=EDGE_CURVE('',#93,#92,#61,.T.);
#113=EDGE_CURVE('',#93,#94,#73,.T.);
#114=EDGE_CURVE('',#95,#94,#51,.T.);
#115=EDGE_CURVE('',#96,#95,#52,.T.);
#116=EDGE_CURVE('',#96,#96,#62,.T.);
#117=EDGE_CURVE('',#94,#96,#53,.T.);
#118=EDGE_CURVE('',#97,#98,#63,.T.);
#119=EDGE_CURVE('',#98,#97,#64,.T.);
#120=EDGE_CURVE('',#98,#99,#74,.T.);
#121=EDGE_CURVE('',#99,#99,#65,.T.);
#122=EDGE_CURVE('',#87,#85,#66,.T.);
#123=EDGE_CURVE('',#100,#87,#54,.T.);
#124=EDGE_CURVE('',#86,#100,#55,.T.);
#125=EDGE_CURVE('',#86,#84,#67,.T.);
#126=EDGE_CURVE('',#95,#100,#75,.T.);
#127=ORIENTED_EDGE('',*,*,#101,.F.);
#128=ORIENTED_EDGE('',*,*,#102,.T.);
#129=ORIENTED_EDGE('',*,*,#103,.F.);
#130=ORIENTED_EDGE('',*,*,#104,.F.);
#131=ORIENTED_EDGE('',*,*,#105,.F.);
#132=ORIENTED_EDGE('',*,*,#106,.F.);
#133=ORIENTED_EDGE('',*,*,#107,.F.);
#134=ORIENTED_EDGE('',*,*,#108,.F.);
#135=ORIENTED_EDGE('',*,*,#109,.F.);
#136=ORIENTED_EDGE('',*,*,#108,.T.);
#137=ORIENTED_EDGE('',*,*,#110,.F.);
#138=ORIENTED_EDGE('',*,*,#106,.T.);
#139=ORIENTED_EDGE('',*,*,#111,.F.);
#140=ORIENTED_EDGE('',*,*,#112,.F.);
#141=ORIENTED_EDGE('',*,*,#113,.T.);
#142=ORIENTED_EDGE('',*,*,#114,.F.);
#143=ORIENTED_EDGE('',*,*,#115,.F.);
#144=ORIENTED_EDGE('',*,*,#116,.F.);
#145=ORIENTED_EDGE('',*,*,#117,.F.);
#146=ORIENTED_EDGE('',*,*,#113,.F.);
#147=ORIENTED_EDGE('',*,*,#111,.T.);
#148=ORIENTED_EDGE('',*,*,#112,.T.);
#149=ORIENTED_EDGE('',*,*,#109,.T.);
#150=ORIENTED_EDGE('',*,*,#105,.T.);
#151=ORIENTED_EDGE('',*,*,#116,.T.);
#152=ORIENTED_EDGE('',*,*,#110,.T.);
#153=ORIENTED_EDGE('',*,*,#107,.T.);
#154=ORIENTED_EDGE('',*,*,#118,.F.);
#155=ORIENTED_EDGE('',*,*,#119,.F.);
#156=ORIENTED_EDGE('',*,*,#120,.T.);
#157=ORIENTED_EDGE('',*,*,#121,.F.);
#158=ORIENTED_EDGE('',*,*,#120,.F.);
#159=ORIENTED_EDGE('',*,*,#101,.T.);
#160=ORIENTED_EDGE('',*,*,#122,.F.);
#161=ORIENTED_EDGE('',*,*,#123,.F.);
#162=ORIENTED_EDGE('',*,*,#124,.F.);
#163=ORIENTED_EDGE('',*,*,#125,.T.);
#164=ORIENTED_EDGE('',*,*,#122,.T.);
#165=ORIENTED_EDGE('',*,*,#104,.T.);
#166=ORIENTED_EDGE('',*,*,#118,.T.);
#167=ORIENTED_EDGE('',*,*,#119,.T.);
#168=ORIENTED_EDGE('',*,*,#125,.F.);
#169=ORIENTED_EDGE('',*,*,#102,.F.);
#170=ORIENTED_EDGE('',*,*,#121,.T.);
#171=ORIENTED_EDGE('',*,*,#115,.T.);
#172=ORIENTED_EDGE('',*,*,#126,.T.);
#173=ORIENTED_EDGE('',*,*,#123,.T.);
#174=ORIENTED_EDGE('',*,*,#103,.T.);
#175=ORIENTED_EDGE('',*,*,#124,.T.);
#176=ORIENTED_EDGE('',*,*,#126,.F.);
#177=ORIENTED_EDGE('',*,*,#114,.T.);
#178=ORIENTED_EDGE('',*,*,#117,.T.);
#179=CYLINDRICAL_SURFACE('',#216,4.);
#180=CYLINDRICAL_SURFACE('',#220,3.4);
#181=CYLINDRICAL_SURFACE('',#223,5.);
#182=CYLINDRICAL_SURFACE('',#229,0.7835);
#183=CYLINDRICAL_SURFACE('',#233,4.);
#184=CYLINDRICAL_SURFACE('',#238,2.);
#185=ADVANCED_FACE('',(#24),#179,.T.);
#186=ADVANCED_FACE('',(#25),#19,.F.);
#187=ADVANCED_FACE('',(#26),#180,.F.);
#188=ADVANCED_FACE('',(#27),#181,.T.);
#189=ADVANCED_FACE('',(#28,#15),#20,.T.);
#190=ADVANCED_FACE('',(#29,#16),#21,.T.);
#191=ADVANCED_FACE('',(#30),#182,.F.);
#192=ADVANCED_FACE('',(#31),#183,.T.);
#193=ADVANCED_FACE('',(#32,#17),#22,.F.);
#194=ADVANCED_FACE('',(#33,#18),#23,.T.);
#195=ADVANCED_FACE('',(#34),#184,.T.);
#196=CLOSED_SHELL('',(#185,#186,#187,#188,#189,#190,#191,#192,#193,#194,
#195));
#197=DERIVED_UNIT_ELEMENT(#199,1.);
#198=DERIVED_UNIT_ELEMENT(#427,3.);
#199=(
MASS_UNIT()
NAMED_UNIT(*)
SI_UNIT($,.GRAM.)
);
#200=DERIVED_UNIT((#197,#198));
#201=MEASURE_REPRESENTATION_ITEM('density measure',
POSITIVE_RATIO_MEASURE(1.),#200);
#202=PROPERTY_DEFINITION_REPRESENTATION(#207,#204);
#203=PROPERTY_DEFINITION_REPRESENTATION(#208,#205);
#204=REPRESENTATION('material name',(#206),#424);
#205=REPRESENTATION('density',(#201),#424);
#206=DESCRIPTIVE_REPRESENTATION_ITEM('Gen\X\E9rico','Gen\X\E9rico');
#207=PROPERTY_DEFINITION('material property','material name',#434);
#208=PROPERTY_DEFINITION('material property','density of part',#434);
#209=DATE_TIME_ROLE('creation_date');
#210=APPLIED_DATE_AND_TIME_ASSIGNMENT(#211,#209,(#434));
#211=DATE_AND_TIME(#212,#213);
#212=CALENDAR_DATE(2021,25,4);
#213=LOCAL_TIME(0,0,0.,#214);
#214=COORDINATED_UNIVERSAL_TIME_OFFSET(0,0,.BEHIND.);
#215=AXIS2_PLACEMENT_3D('placement',#295,#239,#240);
#216=AXIS2_PLACEMENT_3D('',#296,#241,#242);
#217=AXIS2_PLACEMENT_3D('',#301,#244,#245);
#218=AXIS2_PLACEMENT_3D('',#322,#246,#247);
#219=AXIS2_PLACEMENT_3D('',#323,#248,#249);
#220=AXIS2_PLACEMENT_3D('',#332,#254,#255);
#221=AXIS2_PLACEMENT_3D('',#333,#256,#257);
#222=AXIS2_PLACEMENT_3D('',#334,#258,#259);
#223=AXIS2_PLACEMENT_3D('',#335,#260,#261);
#224=AXIS2_PLACEMENT_3D('',#338,#262,#263);
#225=AXIS2_PLACEMENT_3D('',#339,#264,#265);
#226=AXIS2_PLACEMENT_3D('',#364,#267,#268);
#227=AXIS2_PLACEMENT_3D('',#384,#269,#270);
#228=AXIS2_PLACEMENT_3D('',#385,#271,#272);
#229=AXIS2_PLACEMENT_3D('',#386,#273,#274);
#230=AXIS2_PLACEMENT_3D('',#389,#275,#276);
#231=AXIS2_PLACEMENT_3D('',#390,#277,#278);
#232=AXIS2_PLACEMENT_3D('',#393,#280,#281);
#233=AXIS2_PLACEMENT_3D('',#394,#282,#283);
#234=AXIS2_PLACEMENT_3D('',#395,#284,#285);
#235=AXIS2_PLACEMENT_3D('',#417,#286,#287);
#236=AXIS2_PLACEMENT_3D('',#418,#288,#289);
#237=AXIS2_PLACEMENT_3D('',#419,#290,#291);
#238=AXIS2_PLACEMENT_3D('',#420,#292,#293);
#239=DIRECTION('axis',(0.,0.,1.));
#240=DIRECTION('refdir',(1.,0.,0.));
#241=DIRECTION('center_axis',(0.,0.,1.));
#242=DIRECTION('ref_axis',(1.,0.,0.));
#243=DIRECTION('',(0.,0.,-1.));
#244=DIRECTION('center_axis',(0.,0.,-1.));
#245=DIRECTION('ref_axis',(1.,0.,0.));
#246=DIRECTION('center_axis',(0.,0.,-1.));
#247=DIRECTION('ref_axis',(1.,0.,0.));
#248=DIRECTION('center_axis',(-1.,-2.05596856412066E-16,0.));
#249=DIRECTION('ref_axis',(2.05596856412066E-16,-1.,0.));
#250=DIRECTION('',(-2.05596856412066E-16,1.,0.));
#251=DIRECTION('',(0.,0.,1.));
#252=DIRECTION('',(2.05596856412066E-16,-1.,0.));
#253=DIRECTION('',(0.,0.,-1.));
#254=DIRECTION('center_axis',(0.,0.,1.));
#255=DIRECTION('ref_axis',(1.,0.,0.));
#256=DIRECTION('center_axis',(0.,0.,-1.));
#257=DIRECTION('ref_axis',(-0.607764068228583,-0.794117647058823,0.));
#258=DIRECTION('center_axis',(0.,0.,1.));
#259=DIRECTION('ref_axis',(-0.607764068228583,-0.794117647058823,0.));
#260=DIRECTION('center_axis',(0.,0.,1.));
#261=DIRECTION('ref_axis',(1.,0.,0.));
#262=DIRECTION('center_axis',(0.,0.,1.));
#263=DIRECTION('ref_axis',(1.,0.,0.));
#264=DIRECTION('center_axis',(0.,0.,1.));
#265=DIRECTION('ref_axis',(1.,0.,0.));
#266=DIRECTION('',(0.,0.,-1.));
#267=DIRECTION('center_axis',(0.,0.,-1.));
#268=DIRECTION('ref_axis',(1.,0.,0.));
#269=DIRECTION('center_axis',(0.,0.,1.));
#270=DIRECTION('ref_axis',(1.,0.,0.));
#271=DIRECTION('center_axis',(0.,0.,-1.));
#272=DIRECTION('ref_axis',(-1.,0.,0.));
#273=DIRECTION('center_axis',(0.,0.,-1.));
#274=DIRECTION('ref_axis',(-1.,0.,0.));
#275=DIRECTION('center_axis',(0.,0.,1.));
#276=DIRECTION('ref_axis',(-1.,0.,0.));
#277=DIRECTION('center_axis',(0.,0.,1.));
#278=DIRECTION('ref_axis',(-1.,0.,0.));
#279=DIRECTION('',(0.,0.,1.));
#280=DIRECTION('center_axis',(0.,0.,-1.));
#281=DIRECTION('ref_axis',(-1.,0.,0.));
#282=DIRECTION('center_axis',(0.,0.,1.));
#283=DIRECTION('ref_axis',(1.,0.,0.));
#284=DIRECTION('center_axis',(0.,0.,-1.));
#285=DIRECTION('ref_axis',(1.,0.,0.));
#286=DIRECTION('center_axis',(0.,0.,-1.));
#287=DIRECTION('ref_axis',(1.,0.,0.));
#288=DIRECTION('center_axis',(0.,0.,1.));
#289=DIRECTION('ref_axis',(1.,0.,0.));
#290=DIRECTION('center_axis',(0.,0.,1.));
#291=DIRECTION('ref_axis',(1.,0.,0.));
#292=DIRECTION('center_axis',(1.,0.,0.));
#293=DIRECTION('ref_axis',(0.,1.,0.));
#294=DIRECTION('',(-1.,0.,0.));
#295=CARTESIAN_POINT('',(0.,0.,0.));
#296=CARTESIAN_POINT('Origin',(3.,0.,0.));
#297=CARTESIAN_POINT('',(-1.,-4.89858719658941E-16,2.));
#298=CARTESIAN_POINT('',(-1.,-4.89858719658941E-16,-2.));
#299=CARTESIAN_POINT('',(-1.,-4.89858719658941E-16,0.));
#300=CARTESIAN_POINT('',(7.,0.,2.));
#301=CARTESIAN_POINT('Origin',(3.,0.,2.));
#302=CARTESIAN_POINT('',(7.,0.,-2.));
#303=CARTESIAN_POINT('Ctrl Pts',(7.,6.93889390390723E-17,-2.));
#304=CARTESIAN_POINT('Ctrl Pts',(7.,0.255910602217378,-2.));
#305=CARTESIAN_POINT('Ctrl Pts',(6.97318393670131,0.525890150977711,-1.94792781173826));
#306=CARTESIAN_POINT('Ctrl Pts',(6.87652968207896,1.01748151622875,-1.74233015984916));
#307=CARTESIAN_POINT('Ctrl Pts',(6.807733220141,1.23939333961253,-1.58903378513366));
#308=CARTESIAN_POINT('Ctrl Pts',(6.67540093509768,1.58951165626207,-1.23891546848412));
#309=CARTESIAN_POINT('Ctrl Pts',(6.60239202492136,1.74245741947245,-1.01716471901564));
#310=CARTESIAN_POINT('Ctrl Pts',(6.49565087190587,1.94777116895352,-0.526277202526571));
#311=CARTESIAN_POINT('Ctrl Pts',(6.46410161513776,2.,-0.256610133920982));
#312=CARTESIAN_POINT('Ctrl Pts',(6.46410161513776,2.,0.));
#313=CARTESIAN_POINT('Ctrl Pts',(6.46410161513776,2.,0.256610133920982));
#314=CARTESIAN_POINT('Ctrl Pts',(6.49565087190587,1.94777116895352,0.526277202526571));
#315=CARTESIAN_POINT('Ctrl Pts',(6.60239202492136,1.74245741947245,1.01716471901564));
#316=CARTESIAN_POINT('Ctrl Pts',(6.67540093509768,1.58951165626207,1.23891546848412));
#317=CARTESIAN_POINT('Ctrl Pts',(6.807733220141,1.23939333961253,1.58903378513366));
#318=CARTESIAN_POINT('Ctrl Pts',(6.87652968207896,1.01748151622875,1.74233015984916));
#319=CARTESIAN_POINT('Ctrl Pts',(6.97318393670131,0.52589015097771,1.94792781173826));
#320=CARTESIAN_POINT('Ctrl Pts',(7.,0.255910602217377,2.));
#321=CARTESIAN_POINT('Ctrl Pts',(7.,-4.16333634234434E-16,2.));
#322=CARTESIAN_POINT('Origin',(3.,0.,-2.));
#323=CARTESIAN_POINT('Origin',(64.8189396812541,2.61786676747744,2.));
#324=CARTESIAN_POINT('',(64.8189396812541,-2.78213323252256,6.5));
#325=CARTESIAN_POINT('',(64.8189396812541,2.61786676747744,6.5));
#326=CARTESIAN_POINT('',(64.8189396812541,1.30893338373872,6.5));
#327=CARTESIAN_POINT('',(64.8189396812541,-2.78213323252256,-2.));
#328=CARTESIAN_POINT('',(64.8189396812541,-2.78213323252256,2.));
#329=CARTESIAN_POINT('',(64.8189396812541,2.61786676747744,-2.));
#330=CARTESIAN_POINT('',(64.8189396812541,1.30893338373872,-2.));
#331=CARTESIAN_POINT('',(64.8189396812541,2.61786676747744,2.));
#332=CARTESIAN_POINT('Origin',(66.8853375132312,-0.082133232522564,2.));
#333=CARTESIAN_POINT('Origin',(66.8853375132312,-0.082133232522564,6.5));
#334=CARTESIAN_POINT('Origin',(66.8853375132312,-0.082133232522564,-2.));
#335=CARTESIAN_POINT('Origin',(67.,0.,2.));
#336=CARTESIAN_POINT('',(72.,0.,6.5));
#337=CARTESIAN_POINT('',(62.,-6.12323399573677E-16,6.5));
#338=CARTESIAN_POINT('Origin',(67.,0.,6.5));
#339=CARTESIAN_POINT('Origin',(67.,0.,6.5));
#340=CARTESIAN_POINT('',(62.,-6.531063949822E-16,2.));
#341=CARTESIAN_POINT('',(62.,-6.12323399573677E-16,2.));
#342=CARTESIAN_POINT('',(62.4174243050442,-2.,-2.44929359829471E-16));
#343=CARTESIAN_POINT('Ctrl Pts',(62.4174243050442,-2.,3.46944695195361E-16));
#344=CARTESIAN_POINT('Ctrl Pts',(62.4174243050442,-2.,0.254371776835101));
#345=CARTESIAN_POINT('Ctrl Pts',(62.3940041662146,-1.94857820072065,0.523440598111858));
#346=CARTESIAN_POINT('Ctrl Pts',(62.3125931513207,-1.74366591114023,1.01517352454281));
#347=CARTESIAN_POINT('Ctrl Pts',(62.2560918982049,-1.59029445166571,1.23813267308049));
#348=CARTESIAN_POINT('Ctrl Pts',(62.1522975824296,-1.23831080168552,1.59011632306067));
#349=CARTESIAN_POINT('Ctrl Pts',(62.0978392344084,-1.01528423068512,1.74362287272866));
#350=CARTESIAN_POINT('Ctrl Pts',(62.0212299114593,-0.523288307694095,1.94863856765519));
#351=CARTESIAN_POINT('Ctrl Pts',(62.,-0.254114446866189,2.));
#352=CARTESIAN_POINT('Ctrl Pts',(62.,0.,2.));
#353=CARTESIAN_POINT('',(62.,0.,-2.));
#354=CARTESIAN_POINT('Ctrl Pts',(62.,6.93889390390723E-17,-2.));
#355=CARTESIAN_POINT('Ctrl Pts',(62.,-0.254114446866189,-2.));
#356=CARTESIAN_POINT('Ctrl Pts',(62.0212299114593,-0.523288307694096,-1.94863856765519));
#357=CARTESIAN_POINT('Ctrl Pts',(62.0978392344084,-1.01528423068512,-1.74362287272866));
#358=CARTESIAN_POINT('Ctrl Pts',(62.1522975824296,-1.23831080168552,-1.59011632306067));
#359=CARTESIAN_POINT('Ctrl Pts',(62.2560918982049,-1.59029445166571,-1.23813267308049));
#360=CARTESIAN_POINT('Ctrl Pts',(62.3125931513207,-1.74366591114023,-1.01517352454281));
#361=CARTESIAN_POINT('Ctrl Pts',(62.3940041662146,-1.94857820072065,-0.523440598111857));
#362=CARTESIAN_POINT('Ctrl Pts',(62.4174243050442,-2.,-0.254371776835101));
#363=CARTESIAN_POINT('Ctrl Pts',(62.4174243050442,-2.,0.));
#364=CARTESIAN_POINT('Origin',(67.,0.,-2.));
#365=CARTESIAN_POINT('Ctrl Pts',(62.,-8.32667268468867E-16,2.));
#366=CARTESIAN_POINT('Ctrl Pts',(62.,0.254114446866189,2.));
#367=CARTESIAN_POINT('Ctrl Pts',(62.0212299114593,0.523288307694094,1.94863856765519));
#368=CARTESIAN_POINT('Ctrl Pts',(62.0978392344084,1.01528423068511,1.74362287272866));
#369=CARTESIAN_POINT('Ctrl Pts',(62.1522975824296,1.23831080168552,1.59011632306067));
#370=CARTESIAN_POINT('Ctrl Pts',(62.2560918982049,1.5902944516657,1.23813267308049));
#371=CARTESIAN_POINT('Ctrl Pts',(62.3125931513207,1.74366591114023,1.01517352454281));
#372=CARTESIAN_POINT('Ctrl Pts',(62.3940041662146,1.94857820072065,0.523440598111858));
#373=CARTESIAN_POINT('Ctrl Pts',(62.4174243050442,2.,0.254371776835101));
#374=CARTESIAN_POINT('Ctrl Pts',(62.4174243050442,2.,0.));
#375=CARTESIAN_POINT('Ctrl Pts',(62.4174243050442,2.,-0.254371776835101));
#376=CARTESIAN_POINT('Ctrl Pts',(62.3940041662146,1.94857820072065,-0.523440598111858));
#377=CARTESIAN_POINT('Ctrl Pts',(62.3125931513207,1.74366591114023,-1.01517352454281));
#378=CARTESIAN_POINT('Ctrl Pts',(62.2560918982049,1.59029445166571,-1.23813267308049));
#379=CARTESIAN_POINT('Ctrl Pts',(62.1522975824296,1.23831080168552,-1.59011632306067));
#380=CARTESIAN_POINT('Ctrl Pts',(62.0978392344084,1.01528423068512,-1.74362287272866));
#381=CARTESIAN_POINT('Ctrl Pts',(62.0212299114593,0.523288307694095,-1.94863856765519));
#382=CARTESIAN_POINT('Ctrl Pts',(62.,0.254114446866189,-2.));
#383=CARTESIAN_POINT('Ctrl Pts',(62.,-1.38777878078145E-16,-2.));
#384=CARTESIAN_POINT('Origin',(67.,0.,6.5));
#385=CARTESIAN_POINT('Origin',(67.,0.,-2.));
#386=CARTESIAN_POINT('Origin',(3.,0.,69.5613583579307));
#387=CARTESIAN_POINT('',(2.2165,0.,-2.));
#388=CARTESIAN_POINT('',(3.7835,-9.59510767131951E-17,-2.));
#389=CARTESIAN_POINT('Origin',(3.,0.,-2.));
#390=CARTESIAN_POINT('Origin',(3.,0.,-2.));
#391=CARTESIAN_POINT('',(3.7835,-9.59510767131951E-17,2.));
#392=CARTESIAN_POINT('',(3.7835,-9.59510767131951E-17,69.5613583579307));
#393=CARTESIAN_POINT('Origin',(3.,0.,2.));
#394=CARTESIAN_POINT('Origin',(3.,0.,0.));
#395=CARTESIAN_POINT('Origin',(3.,0.,-2.));
#396=CARTESIAN_POINT('',(6.46410161513776,-2.,-2.44929359829471E-16));
#397=CARTESIAN_POINT('Ctrl Pts',(6.46410161513776,-2.,-2.77555756156289E-16));
#398=CARTESIAN_POINT('Ctrl Pts',(6.46410161513776,-2.,-0.256610133920982));
#399=CARTESIAN_POINT('Ctrl Pts',(6.49565087190587,-1.94777116895352,-0.526277202526571));
#400=CARTESIAN_POINT('Ctrl Pts',(6.60239202492136,-1.74245741947245,-1.01716471901564));
#401=CARTESIAN_POINT('Ctrl Pts',(6.67540093509768,-1.58951165626207,-1.23891546848412));
#402=CARTESIAN_POINT('Ctrl Pts',(6.807733220141,-1.23939333961253,-1.58903378513366));
#403=CARTESIAN_POINT('Ctrl Pts',(6.87652968207896,-1.01748151622875,-1.74233015984916));
#404=CARTESIAN_POINT('Ctrl Pts',(6.97318393670131,-0.52589015097771,-1.94792781173826));
#405=CARTESIAN_POINT('Ctrl Pts',(7.,-0.255910602217378,-2.));
#406=CARTESIAN_POINT('Ctrl Pts',(7.,2.77555756156289E-16,-2.));
#407=CARTESIAN_POINT('Ctrl Pts',(7.,-2.08166817117217E-16,2.));
#408=CARTESIAN_POINT('Ctrl Pts',(7.,-0.255910602217378,2.));
#409=CARTESIAN_POINT('Ctrl Pts',(6.97318393670131,-0.525890150977711,1.94792781173826));
#410=CARTESIAN_POINT('Ctrl Pts',(6.87652968207896,-1.01748151622875,1.74233015984916));
#411=CARTESIAN_POINT('Ctrl Pts',(6.807733220141,-1.23939333961253,1.58903378513366));
#412=CARTESIAN_POINT('Ctrl Pts',(6.67540093509768,-1.58951165626207,1.23891546848412));
#413=CARTESIAN_POINT('Ctrl Pts',(6.60239202492136,-1.74245741947245,1.01716471901564));
#414=CARTESIAN_POINT('Ctrl Pts',(6.49565087190587,-1.94777116895352,0.526277202526571));
#415=CARTESIAN_POINT('Ctrl Pts',(6.46410161513776,-2.,0.256610133920982));
#416=CARTESIAN_POINT('Ctrl Pts',(6.46410161513776,-2.,1.38777878078145E-16));
#417=CARTESIAN_POINT('Origin',(3.,0.,2.));
#418=CARTESIAN_POINT('Origin',(3.,0.,-2.));
#419=CARTESIAN_POINT('Origin',(3.,0.,2.));
#420=CARTESIAN_POINT('Origin',(0.,0.,0.));
#421=CARTESIAN_POINT('',(0.,-2.,-2.44929359829471E-16));
#422=UNCERTAINTY_MEASURE_WITH_UNIT(LENGTH_MEASURE(0.01),#426,
'DISTANCE_ACCURACY_VALUE',
'Maximum model space distance between geometric entities at asserted c
onnectivities');
#423=UNCERTAINTY_MEASURE_WITH_UNIT(LENGTH_MEASURE(0.01),#426,
'DISTANCE_ACCURACY_VALUE',
'Maximum model space distance between geometric entities at asserted c
onnectivities');
#424=(
GEOMETRIC_REPRESENTATION_CONTEXT(3)
GLOBAL_UNCERTAINTY_ASSIGNED_CONTEXT((#422))
GLOBAL_UNIT_ASSIGNED_CONTEXT((#426,#428,#429))
REPRESENTATION_CONTEXT('','3D')
);
#425=(
GEOMETRIC_REPRESENTATION_CONTEXT(3)
GLOBAL_UNCERTAINTY_ASSIGNED_CONTEXT((#423))
GLOBAL_UNIT_ASSIGNED_CONTEXT((#426,#428,#429))
REPRESENTATION_CONTEXT('','3D')
);
#426=(
LENGTH_UNIT()
NAMED_UNIT(*)
SI_UNIT(.MILLI.,.METRE.)
);
#427=(
LENGTH_UNIT()
NAMED_UNIT(*)
SI_UNIT(.CENTI.,.METRE.)
);
#428=(
NAMED_UNIT(*)
PLANE_ANGLE_UNIT()
SI_UNIT($,.RADIAN.)
);
#429=(
NAMED_UNIT(*)
SI_UNIT($,.STERADIAN.)
SOLID_ANGLE_UNIT()
);
#430=SHAPE_DEFINITION_REPRESENTATION(#431,#432);
#431=PRODUCT_DEFINITION_SHAPE('',$,#434);
#432=SHAPE_REPRESENTATION('',(#215),#424);
#433=PRODUCT_DEFINITION_CONTEXT('part definition',#438,'design');
#434=PRODUCT_DEFINITION('Arm ProximalV2','Arm ProximalV2',#435,#433);
#435=PRODUCT_DEFINITION_FORMATION('',$,#440);
#436=PRODUCT_RELATED_PRODUCT_CATEGORY('Arm ProximalV2','Arm ProximalV2',
(#440));
#437=APPLICATION_PROTOCOL_DEFINITION('international standard',
'automotive_design',2009,#438);
#438=APPLICATION_CONTEXT(
'Core Data for Automotive Mechanical Design Process');
#439=PRODUCT_CONTEXT('part definition',#438,'mechanical');
#440=PRODUCT('Arm ProximalV2','Arm ProximalV2',$,(#439));
#441=PRESENTATION_STYLE_ASSIGNMENT((#442));
#442=SURFACE_STYLE_USAGE(.BOTH.,#445);
#443=SURFACE_STYLE_RENDERING_WITH_PROPERTIES($,#449,(#444));
#444=SURFACE_STYLE_TRANSPARENT(0.);
#445=SURFACE_SIDE_STYLE('',(#446,#443));
#446=SURFACE_STYLE_FILL_AREA(#447);
#447=FILL_AREA_STYLE('',(#448));
#448=FILL_AREA_STYLE_COLOUR('',#449);
#449=COLOUR_RGB('',0.749019607843137,0.749019607843137,0.749019607843137);
ENDSEC;
END-ISO-10303-21;
